ISO-10303-21;
HEADER;
/* Generated by software containing ST-Developer
 * from STEP Tools, Inc. (www.steptools.com) 
 */

FILE_DESCRIPTION(
/* description */ (''),
/* implementation_level */ '2;1');

FILE_NAME(
/* name */ 'VS041_ST25.4-SFH4.7625-160.stp',
/* time_stamp */ '2024-06-26T09:49:09+09:00',
/* author */ ('YSH'),
/* organization */ (''),
/* preprocessor_version */ 'ST-DEVELOPER v20',
/* originating_system */ 'Autodesk Inventor 2024',
/* authorisation */ '');

FILE_SCHEMA (('AUTOMOTIVE_DESIGN { 1 0 10303 214 3 1 1 }'));
ENDSEC;

DATA;
#10=MECHANICAL_DESIGN_GEOMETRIC_PRESENTATION_REPRESENTATION('',(#13),#402);
#11=SHAPE_REPRESENTATION_RELATIONSHIP('SRR','None',#409,#12);
#12=ADVANCED_BREP_SHAPE_REPRESENTATION('',(#14),#401);
#13=STYLED_ITEM('',(#418),#14);
#14=MANIFOLD_SOLID_BREP('\X2\C194B9ACB4DC\X0\1',#208);
#15=CONICAL_SURFACE('',#241,1.5,1.02974425867665);
#16=CONICAL_SURFACE('',#245,2.25,1.02974425867665);
#17=CONICAL_SURFACE('',#261,7.20076445270707,0.0785398163397451);
#18=CONICAL_SURFACE('',#263,11.0507644527071,0.680678408277789);
#19=FACE_BOUND('',#59,.T.);
#20=FACE_BOUND('',#67,.T.);
#21=PLANE('',#239);
#22=PLANE('',#256);
#23=LINE('',#351,#31);
#24=LINE('',#361,#32);
#25=LINE('',#365,#33);
#26=LINE('',#369,#34);
#27=LINE('',#373,#35);
#28=LINE('',#384,#36);
#29=LINE('',#396,#37);
#30=LINE('',#398,#38);
#31=VECTOR('',#278,2.38125);
#32=VECTOR('',#291,1.5);
#33=VECTOR('',#296,3.);
#34=VECTOR('',#301,2.25);
#35=VECTOR('',#306,4.5);
#36=VECTOR('',#319,12.7);
#37=VECTOR('',#336,7.20076445270707);
#38=VECTOR('',#339,11.0507644527071);
#39=CYLINDRICAL_SURFACE('',#236,2.38125);
#40=CYLINDRICAL_SURFACE('',#243,3.);
#41=CYLINDRICAL_SURFACE('',#247,4.5);
#42=CYLINDRICAL_SURFACE('',#254,12.7);
#43=FACE_OUTER_BOUND('',#56,.T.);
#44=FACE_OUTER_BOUND('',#57,.T.);
#45=FACE_OUTER_BOUND('',#58,.T.);
#46=FACE_OUTER_BOUND('',#60,.T.);
#47=FACE_OUTER_BOUND('',#61,.T.);
#48=FACE_OUTER_BOUND('',#62,.T.);
#49=FACE_OUTER_BOUND('',#63,.T.);
#50=FACE_OUTER_BOUND('',#64,.T.);
#51=FACE_OUTER_BOUND('',#65,.T.);
#52=FACE_OUTER_BOUND('',#66,.T.);
#53=FACE_OUTER_BOUND('',#68,.T.);
#54=FACE_OUTER_BOUND('',#69,.T.);
#55=FACE_OUTER_BOUND('',#70,.T.);
#56=EDGE_LOOP('',(#136,#137,#138,#139,#140));
#57=EDGE_LOOP('',(#141,#142,#143,#144,#145,#146));
#58=EDGE_LOOP('',(#147));
#59=EDGE_LOOP('',(#148));
#60=EDGE_LOOP('',(#149,#150,#151,#152,#153));
#61=EDGE_LOOP('',(#154,#155,#156,#157));
#62=EDGE_LOOP('',(#158,#159,#160,#161));
#63=EDGE_LOOP('',(#162,#163,#164,#165));
#64=EDGE_LOOP('',(#166,#167,#168,#169,#170));
#65=EDGE_LOOP('',(#171,#172,#173,#174,#175));
#66=EDGE_LOOP('',(#176));
#67=EDGE_LOOP('',(#177));
#68=EDGE_LOOP('',(#178,#179,#180,#181,#182));
#69=EDGE_LOOP('',(#183,#184,#185,#186,#187));
#70=EDGE_LOOP('',(#188,#189,#190,#191));
#71=CIRCLE('',#232,3.38125);
#72=CIRCLE('',#233,1.);
#73=CIRCLE('',#234,2.38125);
#74=CIRCLE('',#235,2.38125);
#75=CIRCLE('',#237,2.38125);
#76=CIRCLE('',#238,2.38125);
#77=CIRCLE('',#240,4.07560950834179);
#78=CIRCLE('',#242,3.);
#79=CIRCLE('',#244,3.);
#80=CIRCLE('',#246,4.5);
#81=CIRCLE('',#248,4.5);
#82=CIRCLE('',#250,11.7);
#83=CIRCLE('',#251,1.);
#84=CIRCLE('',#252,12.7);
#85=CIRCLE('',#253,12.7);
#86=CIRCLE('',#255,12.7);
#87=CIRCLE('',#258,5.07252684207492);
#88=CIRCLE('',#259,5.07252684207492);
#89=CIRCLE('',#260,1.);
#90=CIRCLE('',#262,9.40152890541415);
#91=VERTEX_POINT('',#342);
#92=VERTEX_POINT('',#344);
#93=VERTEX_POINT('',#346);
#94=VERTEX_POINT('',#350);
#95=VERTEX_POINT('',#352);
#96=VERTEX_POINT('',#356);
#97=VERTEX_POINT('',#359);
#98=VERTEX_POINT('',#363);
#99=VERTEX_POINT('',#367);
#100=VERTEX_POINT('',#371);
#101=VERTEX_POINT('',#375);
#102=VERTEX_POINT('',#377);
#103=VERTEX_POINT('',#379);
#104=VERTEX_POINT('',#383);
#105=VERTEX_POINT('',#388);
#106=VERTEX_POINT('',#389);
#107=VERTEX_POINT('',#394);
#108=EDGE_CURVE('',#91,#91,#71,.T.);
#109=EDGE_CURVE('',#91,#92,#72,.T.);
#110=EDGE_CURVE('',#92,#93,#73,.T.);
#111=EDGE_CURVE('',#93,#92,#74,.T.);
#112=EDGE_CURVE('',#93,#94,#23,.T.);
#113=EDGE_CURVE('',#95,#94,#75,.T.);
#114=EDGE_CURVE('',#94,#95,#76,.T.);
#115=EDGE_CURVE('',#96,#96,#77,.T.);
#116=EDGE_CURVE('',#97,#97,#78,.T.);
#117=EDGE_CURVE('',#97,#95,#24,.T.);
#118=EDGE_CURVE('',#98,#98,#79,.T.);
#119=EDGE_CURVE('',#98,#97,#25,.T.);
#120=EDGE_CURVE('',#99,#99,#80,.T.);
#121=EDGE_CURVE('',#99,#98,#26,.T.);
#122=EDGE_CURVE('',#100,#100,#81,.T.);
#123=EDGE_CURVE('',#100,#99,#27,.T.);
#124=EDGE_CURVE('',#101,#101,#82,.T.);
#125=EDGE_CURVE('',#101,#102,#83,.T.);
#126=EDGE_CURVE('',#102,#103,#84,.T.);
#127=EDGE_CURVE('',#103,#102,#85,.T.);
#128=EDGE_CURVE('',#103,#104,#28,.T.);
#129=EDGE_CURVE('',#104,#104,#86,.T.);
#130=EDGE_CURVE('',#105,#106,#87,.T.);
#131=EDGE_CURVE('',#106,#105,#88,.T.);
#132=EDGE_CURVE('',#105,#96,#89,.T.);
#133=EDGE_CURVE('',#107,#107,#90,.T.);
#134=EDGE_CURVE('',#107,#106,#29,.T.);
#135=EDGE_CURVE('',#104,#107,#30,.T.);
#136=ORIENTED_EDGE('',*,*,#108,.T.);
#137=ORIENTED_EDGE('',*,*,#109,.T.);
#138=ORIENTED_EDGE('',*,*,#110,.T.);
#139=ORIENTED_EDGE('',*,*,#111,.T.);
#140=ORIENTED_EDGE('',*,*,#109,.F.);
#141=ORIENTED_EDGE('',*,*,#110,.F.);
#142=ORIENTED_EDGE('',*,*,#111,.F.);
#143=ORIENTED_EDGE('',*,*,#112,.T.);
#144=ORIENTED_EDGE('',*,*,#113,.F.);
#145=ORIENTED_EDGE('',*,*,#114,.F.);
#146=ORIENTED_EDGE('',*,*,#112,.F.);
#147=ORIENTED_EDGE('',*,*,#115,.F.);
#148=ORIENTED_EDGE('',*,*,#108,.F.);
#149=ORIENTED_EDGE('',*,*,#116,.T.);
#150=ORIENTED_EDGE('',*,*,#117,.T.);
#151=ORIENTED_EDGE('',*,*,#113,.T.);
#152=ORIENTED_EDGE('',*,*,#114,.T.);
#153=ORIENTED_EDGE('',*,*,#117,.F.);
#154=ORIENTED_EDGE('',*,*,#118,.F.);
#155=ORIENTED_EDGE('',*,*,#119,.T.);
#156=ORIENTED_EDGE('',*,*,#116,.F.);
#157=ORIENTED_EDGE('',*,*,#119,.F.);
#158=ORIENTED_EDGE('',*,*,#120,.T.);
#159=ORIENTED_EDGE('',*,*,#121,.T.);
#160=ORIENTED_EDGE('',*,*,#118,.T.);
#161=ORIENTED_EDGE('',*,*,#121,.F.);
#162=ORIENTED_EDGE('',*,*,#122,.F.);
#163=ORIENTED_EDGE('',*,*,#123,.T.);
#164=ORIENTED_EDGE('',*,*,#120,.F.);
#165=ORIENTED_EDGE('',*,*,#123,.F.);
#166=ORIENTED_EDGE('',*,*,#124,.T.);
#167=ORIENTED_EDGE('',*,*,#125,.T.);
#168=ORIENTED_EDGE('',*,*,#126,.T.);
#169=ORIENTED_EDGE('',*,*,#127,.T.);
#170=ORIENTED_EDGE('',*,*,#125,.F.);
#171=ORIENTED_EDGE('',*,*,#127,.F.);
#172=ORIENTED_EDGE('',*,*,#128,.T.);
#173=ORIENTED_EDGE('',*,*,#129,.T.);
#174=ORIENTED_EDGE('',*,*,#128,.F.);
#175=ORIENTED_EDGE('',*,*,#126,.F.);
#176=ORIENTED_EDGE('',*,*,#124,.F.);
#177=ORIENTED_EDGE('',*,*,#122,.T.);
#178=ORIENTED_EDGE('',*,*,#130,.T.);
#179=ORIENTED_EDGE('',*,*,#131,.T.);
#180=ORIENTED_EDGE('',*,*,#132,.T.);
#181=ORIENTED_EDGE('',*,*,#115,.T.);
#182=ORIENTED_EDGE('',*,*,#132,.F.);
#183=ORIENTED_EDGE('',*,*,#133,.F.);
#184=ORIENTED_EDGE('',*,*,#134,.T.);
#185=ORIENTED_EDGE('',*,*,#130,.F.);
#186=ORIENTED_EDGE('',*,*,#131,.F.);
#187=ORIENTED_EDGE('',*,*,#134,.F.);
#188=ORIENTED_EDGE('',*,*,#129,.F.);
#189=ORIENTED_EDGE('',*,*,#135,.T.);
#190=ORIENTED_EDGE('',*,*,#133,.T.);
#191=ORIENTED_EDGE('',*,*,#135,.F.);
#192=TOROIDAL_SURFACE('',#231,3.38125,1.);
#193=TOROIDAL_SURFACE('',#249,11.7,1.);
#194=TOROIDAL_SURFACE('',#257,4.07560950834179,1.);
#195=ADVANCED_FACE('',(#43),#192,.T.);
#196=ADVANCED_FACE('',(#44),#39,.F.);
#197=ADVANCED_FACE('',(#45,#19),#21,.T.);
#198=ADVANCED_FACE('',(#46),#15,.F.);
#199=ADVANCED_FACE('',(#47),#40,.F.);
#200=ADVANCED_FACE('',(#48),#16,.F.);
#201=ADVANCED_FACE('',(#49),#41,.F.);
#202=ADVANCED_FACE('',(#50),#193,.T.);
#203=ADVANCED_FACE('',(#51),#42,.T.);
#204=ADVANCED_FACE('',(#52,#20),#22,.T.);
#205=ADVANCED_FACE('',(#53),#194,.T.);
#206=ADVANCED_FACE('',(#54),#17,.T.);
#207=ADVANCED_FACE('',(#55),#18,.T.);
#208=CLOSED_SHELL('',(#195,#196,#197,#198,#199,#200,#201,#202,#203,#204,
#205,#206,#207));
#209=DERIVED_UNIT_ELEMENT(#212,1.);
#210=DERIVED_UNIT_ELEMENT(#404,-3.);
#211=DIMENSIONAL_EXPONENTS(0.,1.,0.,0.,0.,0.,0.);
#212=(
CONVERSION_BASED_UNIT('gram',#214)
MASS_UNIT()
NAMED_UNIT(#211)
);
#213=(
MASS_UNIT()
NAMED_UNIT(*)
SI_UNIT(.KILO.,.GRAM.)
);
#214=MASS_MEASURE_WITH_UNIT(MASS_MEASURE(0.001),#213);
#215=DERIVED_UNIT((#209,#210));
#216=MEASURE_REPRESENTATION_ITEM('density measure',
POSITIVE_RATIO_MEASURE(1.),#215);
#217=PROPERTY_DEFINITION_REPRESENTATION(#222,#219);
#218=PROPERTY_DEFINITION_REPRESENTATION(#223,#220);
#219=REPRESENTATION('material name',(#221),#401);
#220=REPRESENTATION('density',(#216),#401);
#221=DESCRIPTIVE_REPRESENTATION_ITEM('\X2\C77CBC18\X0\','\X2\C77CBC18\X0\');
#222=PROPERTY_DEFINITION('material property','material name',#411);
#223=PROPERTY_DEFINITION('material property','density of part',#411);
#224=DATE_TIME_ROLE('creation_date');
#225=APPLIED_DATE_AND_TIME_ASSIGNMENT(#226,#224,(#411));
#226=DATE_AND_TIME(#227,#228);
#227=CALENDAR_DATE(2024,15,1);
#228=LOCAL_TIME(0,0,0.,#229);
#229=COORDINATED_UNIVERSAL_TIME_OFFSET(0,0,.BEHIND.);
#230=AXIS2_PLACEMENT_3D('',#340,#264,#265);
#231=AXIS2_PLACEMENT_3D('',#341,#266,#267);
#232=AXIS2_PLACEMENT_3D('',#343,#268,#269);
#233=AXIS2_PLACEMENT_3D('',#345,#270,#271);
#234=AXIS2_PLACEMENT_3D('',#347,#272,#273);
#235=AXIS2_PLACEMENT_3D('',#348,#274,#275);
#236=AXIS2_PLACEMENT_3D('',#349,#276,#277);
#237=AXIS2_PLACEMENT_3D('',#353,#279,#280);
#238=AXIS2_PLACEMENT_3D('',#354,#281,#282);
#239=AXIS2_PLACEMENT_3D('',#355,#283,#284);
#240=AXIS2_PLACEMENT_3D('',#357,#285,#286);
#241=AXIS2_PLACEMENT_3D('',#358,#287,#288);
#242=AXIS2_PLACEMENT_3D('',#360,#289,#290);
#243=AXIS2_PLACEMENT_3D('',#362,#292,#293);
#244=AXIS2_PLACEMENT_3D('',#364,#294,#295);
#245=AXIS2_PLACEMENT_3D('',#366,#297,#298);
#246=AXIS2_PLACEMENT_3D('',#368,#299,#300);
#247=AXIS2_PLACEMENT_3D('',#370,#302,#303);
#248=AXIS2_PLACEMENT_3D('',#372,#304,#305);
#249=AXIS2_PLACEMENT_3D('',#374,#307,#308);
#250=AXIS2_PLACEMENT_3D('',#376,#309,#310);
#251=AXIS2_PLACEMENT_3D('',#378,#311,#312);
#252=AXIS2_PLACEMENT_3D('',#380,#313,#314);
#253=AXIS2_PLACEMENT_3D('',#381,#315,#316);
#254=AXIS2_PLACEMENT_3D('',#382,#317,#318);
#255=AXIS2_PLACEMENT_3D('',#385,#320,#321);
#256=AXIS2_PLACEMENT_3D('',#386,#322,#323);
#257=AXIS2_PLACEMENT_3D('',#387,#324,#325);
#258=AXIS2_PLACEMENT_3D('',#390,#326,#327);
#259=AXIS2_PLACEMENT_3D('',#391,#328,#329);
#260=AXIS2_PLACEMENT_3D('',#392,#330,#331);
#261=AXIS2_PLACEMENT_3D('',#393,#332,#333);
#262=AXIS2_PLACEMENT_3D('',#395,#334,#335);
#263=AXIS2_PLACEMENT_3D('',#397,#337,#338);
#264=DIRECTION('axis',(0.,0.,1.));
#265=DIRECTION('refdir',(1.,0.,0.));
#266=DIRECTION('center_axis',(-1.,0.,0.));
#267=DIRECTION('ref_axis',(0.,0.,1.));
#268=DIRECTION('center_axis',(1.,0.,0.));
#269=DIRECTION('ref_axis',(0.,-1.22464679914735E-16,1.));
#270=DIRECTION('center_axis',(0.,-1.,1.22464679914735E-16));
#271=DIRECTION('ref_axis',(0.,-1.22464679914735E-16,-1.));
#272=DIRECTION('center_axis',(-1.,0.,0.));
#273=DIRECTION('ref_axis',(0.,-1.22464679914735E-16,1.));
#274=DIRECTION('center_axis',(-1.,0.,0.));
#275=DIRECTION('ref_axis',(0.,-1.22464679914735E-16,1.));
#276=DIRECTION('center_axis',(1.,0.,0.));
#277=DIRECTION('ref_axis',(0.,0.,-1.));
#278=DIRECTION('',(-1.,0.,0.));
#279=DIRECTION('center_axis',(1.,0.,0.));
#280=DIRECTION('ref_axis',(0.,0.,-1.));
#281=DIRECTION('center_axis',(1.,0.,0.));
#282=DIRECTION('ref_axis',(0.,0.,-1.));
#283=DIRECTION('center_axis',(1.,0.,0.));
#284=DIRECTION('ref_axis',(0.,0.,-1.));
#285=DIRECTION('center_axis',(-1.,0.,0.));
#286=DIRECTION('ref_axis',(0.,-1.,-1.83697019872103E-16));
#287=DIRECTION('center_axis',(-1.,0.,0.));
#288=DIRECTION('ref_axis',(0.,0.,1.));
#289=DIRECTION('center_axis',(-1.,0.,0.));
#290=DIRECTION('ref_axis',(0.,0.,1.));
#291=DIRECTION('',(0.515038074910054,1.04972719113862E-16,0.857167300702112));
#292=DIRECTION('center_axis',(-1.,0.,0.));
#293=DIRECTION('ref_axis',(0.,0.,1.));
#294=DIRECTION('center_axis',(1.,0.,0.));
#295=DIRECTION('ref_axis',(0.,0.,1.));
#296=DIRECTION('',(1.,0.,0.));
#297=DIRECTION('center_axis',(-1.,0.,0.));
#298=DIRECTION('ref_axis',(0.,0.,1.));
#299=DIRECTION('center_axis',(-1.,0.,0.));
#300=DIRECTION('ref_axis',(0.,0.,1.));
#301=DIRECTION('',(0.515038074910054,1.04972719113862E-16,0.857167300702112));
#302=DIRECTION('center_axis',(-1.,0.,0.));
#303=DIRECTION('ref_axis',(0.,0.,1.));
#304=DIRECTION('center_axis',(1.,0.,0.));
#305=DIRECTION('ref_axis',(0.,0.,1.));
#306=DIRECTION('',(1.,0.,0.));
#307=DIRECTION('center_axis',(-1.,0.,0.));
#308=DIRECTION('ref_axis',(0.,0.,1.));
#309=DIRECTION('center_axis',(1.,0.,0.));
#310=DIRECTION('ref_axis',(0.,-1.,-1.83697019872103E-16));
#311=DIRECTION('center_axis',(0.,-1.,1.22464679914735E-16));
#312=DIRECTION('ref_axis',(0.,-1.22464679914735E-16,-1.));
#313=DIRECTION('center_axis',(-1.,0.,0.));
#314=DIRECTION('ref_axis',(0.,-1.,-1.83697019872103E-16));
#315=DIRECTION('center_axis',(-1.,0.,0.));
#316=DIRECTION('ref_axis',(0.,-1.,-1.83697019872103E-16));
#317=DIRECTION('center_axis',(-1.,0.,0.));
#318=DIRECTION('ref_axis',(0.,1.,0.));
#319=DIRECTION('',(1.,0.,0.));
#320=DIRECTION('center_axis',(-1.,0.,0.));
#321=DIRECTION('ref_axis',(0.,0.,1.));
#322=DIRECTION('center_axis',(-1.,0.,0.));
#323=DIRECTION('ref_axis',(0.,0.,1.));
#324=DIRECTION('center_axis',(-1.,0.,0.));
#325=DIRECTION('ref_axis',(0.,0.,1.));
#326=DIRECTION('center_axis',(1.,0.,0.));
#327=DIRECTION('ref_axis',(0.,-1.,-3.06161699786838E-17));
#328=DIRECTION('center_axis',(1.,0.,0.));
#329=DIRECTION('ref_axis',(0.,-1.,-3.06161699786838E-17));
#330=DIRECTION('center_axis',(0.,-1.,1.22464679914735E-16));
#331=DIRECTION('ref_axis',(0.,-1.22464679914735E-16,-1.));
#332=DIRECTION('center_axis',(-1.,0.,0.));
#333=DIRECTION('ref_axis',(0.,1.,0.));
#334=DIRECTION('center_axis',(-1.,0.,0.));
#335=DIRECTION('ref_axis',(0.,0.,1.));
#336=DIRECTION('',(0.996917333733128,0.0784590957278453,-9.60846804471015E-18));
#337=DIRECTION('center_axis',(-1.,0.,0.));
#338=DIRECTION('ref_axis',(0.,1.,0.));
#339=DIRECTION('',(0.77714596145697,0.629320391049838,-7.70695202537345E-17));
#340=CARTESIAN_POINT('',(0.,0.,0.));
#341=CARTESIAN_POINT('Origin',(-1.00000000000001,0.,0.));
#342=CARTESIAN_POINT('',(0.,8.28167397923398E-16,-3.38125));
#343=CARTESIAN_POINT('Origin',(0.,0.,0.));
#344=CARTESIAN_POINT('',(-1.00000000000001,0.,-2.38125));
#345=CARTESIAN_POINT('Origin',(-1.00000000000001,-4.14083698961699E-16,
-3.38125));
#346=CARTESIAN_POINT('',(-1.00000000000001,-2.91619019046964E-16,2.38125));
#347=CARTESIAN_POINT('Origin',(-1.00000000000001,0.,0.));
#348=CARTESIAN_POINT('Origin',(-1.00000000000001,0.,0.));
#349=CARTESIAN_POINT('Origin',(-163.982682012461,0.,0.));
#350=CARTESIAN_POINT('',(-11.9882174919767,-2.91619019046964E-16,2.38125));
#351=CARTESIAN_POINT('',(-163.982682012461,-2.91619019046964E-16,2.38125));
#352=CARTESIAN_POINT('',(-11.9882174919767,-2.91619019046963E-16,-2.38125));
#353=CARTESIAN_POINT('Origin',(-11.9882174919767,0.,0.));
#354=CARTESIAN_POINT('Origin',(-11.9882174919767,0.,0.));
#355=CARTESIAN_POINT('Origin',(0.,5.,0.));
#356=CARTESIAN_POINT('',(0.,-4.99118213896529E-16,-4.07560950834179));
#357=CARTESIAN_POINT('Origin',(0.,0.,0.));
#358=CARTESIAN_POINT('Origin',(-11.4587090714587,0.,0.));
#359=CARTESIAN_POINT('',(-12.36,-3.67394039744206E-16,-3.));
#360=CARTESIAN_POINT('Origin',(-12.36,0.,0.));
#361=CARTESIAN_POINT('',(-11.4587090714587,-1.83697019872103E-16,-1.5));
#362=CARTESIAN_POINT('Origin',(-86.18,0.,0.));
#363=CARTESIAN_POINT('',(-89.0987090714587,3.67394039744206E-16,-3.));
#364=CARTESIAN_POINT('Origin',(-89.0987090714587,0.,0.));
#365=CARTESIAN_POINT('',(-86.18,-3.67394039744206E-16,-3.));
#366=CARTESIAN_POINT('Origin',(-88.648063607188,0.,0.));
#367=CARTESIAN_POINT('',(-90.,-5.51091059616309E-16,-4.5));
#368=CARTESIAN_POINT('Origin',(-90.,0.,0.));
#369=CARTESIAN_POINT('',(-88.648063607188,-2.75545529808154E-16,-2.25));
#370=CARTESIAN_POINT('Origin',(-125.,0.,0.));
#371=CARTESIAN_POINT('',(-160.,-5.51091059616309E-16,-4.5));
#372=CARTESIAN_POINT('Origin',(-160.,0.,0.));
#373=CARTESIAN_POINT('',(-125.,-5.51091059616309E-16,-4.5));
#374=CARTESIAN_POINT('Origin',(-159.,0.,0.));
#375=CARTESIAN_POINT('',(-160.,-1.4328367550024E-15,-11.7));
#376=CARTESIAN_POINT('Origin',(-160.,0.,0.));
#377=CARTESIAN_POINT('',(-159.,-1.55530143491714E-15,-12.7));
#378=CARTESIAN_POINT('Origin',(-159.,-1.4328367550024E-15,-11.7));
#379=CARTESIAN_POINT('',(-159.,-12.7,1.55530143491714E-15));
#380=CARTESIAN_POINT('Origin',(-159.,0.,0.));
#381=CARTESIAN_POINT('Origin',(-159.,0.,0.));
#382=CARTESIAN_POINT('Origin',(-110.,0.,0.));
#383=CARTESIAN_POINT('',(-60.,-12.7,1.55530143491714E-15));
#384=CARTESIAN_POINT('',(-110.,-12.7,1.55530143491714E-15));
#385=CARTESIAN_POINT('Origin',(-60.,0.,0.));
#386=CARTESIAN_POINT('Origin',(-160.,0.,0.));
#387=CARTESIAN_POINT('Origin',(-1.,0.,0.));
#388=CARTESIAN_POINT('',(-0.921540904272153,-6.21205376073608E-16,-5.07252684207492));
#389=CARTESIAN_POINT('',(-0.921540904272153,-5.07252684207492,6.21205376073608E-16));
#390=CARTESIAN_POINT('Origin',(-0.921540904272153,0.,7.7650672009201E-16));
#391=CARTESIAN_POINT('Origin',(-0.921540904272153,0.,7.7650672009201E-16));
#392=CARTESIAN_POINT('Origin',(-1.,-4.99118213896529E-16,-4.07560950834179));
#393=CARTESIAN_POINT('Origin',(-27.9633637121914,0.,0.));
#394=CARTESIAN_POINT('',(-55.9267274243829,-9.40152890541415,1.15135522811068E-15));
#395=CARTESIAN_POINT('Origin',(-55.9267274243829,0.,0.));
#396=CARTESIAN_POINT('',(-27.9633637121914,-7.20076445270707,8.81839313842176E-16));
#397=CARTESIAN_POINT('Origin',(-57.9633637121914,0.,0.));
#398=CARTESIAN_POINT('',(-57.9633637121914,-11.0507644527071,1.35332833151391E-15));
#399=UNCERTAINTY_MEASURE_WITH_UNIT(LENGTH_MEASURE(0.01),#403,
'DISTANCE_ACCURACY_VALUE',
'Maximum model space distance between geometric entities at asserted c
onnectivities');
#400=UNCERTAINTY_MEASURE_WITH_UNIT(LENGTH_MEASURE(0.01),#403,
'DISTANCE_ACCURACY_VALUE',
'Maximum model space distance between geometric entities at asserted c
onnectivities');
#401=(
GEOMETRIC_REPRESENTATION_CONTEXT(3)
GLOBAL_UNCERTAINTY_ASSIGNED_CONTEXT((#399))
GLOBAL_UNIT_ASSIGNED_CONTEXT((#403,#405,#406))
REPRESENTATION_CONTEXT('','3D')
);
#402=(
GEOMETRIC_REPRESENTATION_CONTEXT(3)
GLOBAL_UNCERTAINTY_ASSIGNED_CONTEXT((#400))
GLOBAL_UNIT_ASSIGNED_CONTEXT((#403,#405,#406))
REPRESENTATION_CONTEXT('','3D')
);
#403=(
LENGTH_UNIT()
NAMED_UNIT(*)
SI_UNIT(.MILLI.,.METRE.)
);
#404=(
LENGTH_UNIT()
NAMED_UNIT(*)
SI_UNIT(.CENTI.,.METRE.)
);
#405=(
NAMED_UNIT(*)
PLANE_ANGLE_UNIT()
SI_UNIT($,.RADIAN.)
);
#406=(
NAMED_UNIT(*)
SI_UNIT($,.STERADIAN.)
SOLID_ANGLE_UNIT()
);
#407=SHAPE_DEFINITION_REPRESENTATION(#408,#409);
#408=PRODUCT_DEFINITION_SHAPE('',$,#411);
#409=SHAPE_REPRESENTATION('',(#230),#401);
#410=PRODUCT_DEFINITION_CONTEXT('part definition',#415,'design');
#411=PRODUCT_DEFINITION('LO-ST25.4-SFH4.7625-160',
'LO-ST25.4-SFH4.7625-160',#412,#410);
#412=PRODUCT_DEFINITION_FORMATION('',$,#417);
#413=PRODUCT_RELATED_PRODUCT_CATEGORY('LO-ST25.4-SFH4.7625-160',
'LO-ST25.4-SFH4.7625-160',(#417));
#414=APPLICATION_PROTOCOL_DEFINITION('international standard',
'automotive_design',2009,#415);
#415=APPLICATION_CONTEXT(
'Core Data for Automotive Mechanical Design Process');
#416=PRODUCT_CONTEXT('part definition',#415,'mechanical');
#417=PRODUCT('LO-ST25.4-SFH4.7625-160','LO-ST25.4-SFH4.7625-160',$,(#416));
#418=PRESENTATION_STYLE_ASSIGNMENT((#419));
#419=SURFACE_STYLE_USAGE(.BOTH.,#422);
#420=SURFACE_STYLE_RENDERING_WITH_PROPERTIES($,#426,(#421));
#421=SURFACE_STYLE_TRANSPARENT(0.339999973773956);
#422=SURFACE_SIDE_STYLE('',(#423,#420));
#423=SURFACE_STYLE_FILL_AREA(#424);
#424=FILL_AREA_STYLE('',(#425));
#425=FILL_AREA_STYLE_COLOUR('',#426);
#426=COLOUR_RGB('',0.925490196078431,0.945098039215686,0.937254901960784);
ENDSEC;
END-ISO-10303-21;
