ISO-10303-21;
HEADER;
/* Generated by software containing ST-Developer
 * from STEP Tools, Inc. (www.steptools.com) 
 */

FILE_DESCRIPTION(
/* description */ (''),
/* implementation_level */ '2;1');

FILE_NAME(
/* name */ 'VS040_ST25.4-SFH3.175-160.stp',
/* time_stamp */ '2024-06-26T09:47:07+09:00',
/* author */ ('YSH'),
/* organization */ (''),
/* preprocessor_version */ 'ST-DEVELOPER v20',
/* originating_system */ 'Autodesk Inventor 2024',
/* authorisation */ '');

FILE_SCHEMA (('AUTOMOTIVE_DESIGN { 1 0 10303 214 3 1 1 }'));
ENDSEC;

DATA;
#10=MECHANICAL_DESIGN_GEOMETRIC_PRESENTATION_REPRESENTATION('',(#13),#402);
#11=SHAPE_REPRESENTATION_RELATIONSHIP('SRR','None',#409,#12);
#12=ADVANCED_BREP_SHAPE_REPRESENTATION('',(#14),#401);
#13=STYLED_ITEM('',(#418),#14);
#14=MANIFOLD_SOLID_BREP('\X2\C194B9ACB4DC\X0\1',#208);
#15=FACE_BOUND('',#46,.T.);
#16=FACE_BOUND('',#50,.T.);
#17=PLANE('',#247);
#18=PLANE('',#256);
#19=TOROIDAL_SURFACE('',#241,2.5875,1.);
#20=TOROIDAL_SURFACE('',#249,11.7,1.);
#21=TOROIDAL_SURFACE('',#257,4.07560950834179,1.);
#22=CYLINDRICAL_SURFACE('',#235,2.5);
#23=CYLINDRICAL_SURFACE('',#239,4.5);
#24=CYLINDRICAL_SURFACE('',#246,1.5875);
#25=CYLINDRICAL_SURFACE('',#254,12.7);
#26=FACE_OUTER_BOUND('',#39,.T.);
#27=FACE_OUTER_BOUND('',#40,.T.);
#28=FACE_OUTER_BOUND('',#41,.T.);
#29=FACE_OUTER_BOUND('',#42,.T.);
#30=FACE_OUTER_BOUND('',#43,.T.);
#31=FACE_OUTER_BOUND('',#44,.T.);
#32=FACE_OUTER_BOUND('',#45,.T.);
#33=FACE_OUTER_BOUND('',#47,.T.);
#34=FACE_OUTER_BOUND('',#48,.T.);
#35=FACE_OUTER_BOUND('',#49,.T.);
#36=FACE_OUTER_BOUND('',#51,.T.);
#37=FACE_OUTER_BOUND('',#52,.T.);
#38=FACE_OUTER_BOUND('',#53,.T.);
#39=EDGE_LOOP('',(#135,#136,#137,#138,#139));
#40=EDGE_LOOP('',(#140,#141,#142,#143));
#41=EDGE_LOOP('',(#144,#145,#146,#147));
#42=EDGE_LOOP('',(#148,#149,#150,#151));
#43=EDGE_LOOP('',(#152,#153,#154,#155,#156));
#44=EDGE_LOOP('',(#157,#158,#159,#160,#161,#162));
#45=EDGE_LOOP('',(#163));
#46=EDGE_LOOP('',(#164));
#47=EDGE_LOOP('',(#165,#166,#167,#168,#169));
#48=EDGE_LOOP('',(#170,#171,#172,#173,#174));
#49=EDGE_LOOP('',(#175));
#50=EDGE_LOOP('',(#176));
#51=EDGE_LOOP('',(#177,#178,#179,#180,#181));
#52=EDGE_LOOP('',(#182,#183,#184,#185,#186));
#53=EDGE_LOOP('',(#187,#188,#189,#190));
#54=LINE('',#345,#62);
#55=LINE('',#352,#63);
#56=LINE('',#356,#64);
#57=LINE('',#360,#65);
#58=LINE('',#370,#66);
#59=LINE('',#384,#67);
#60=LINE('',#396,#68);
#61=LINE('',#398,#69);
#62=VECTOR('',#270,1.25);
#63=VECTOR('',#279,2.5);
#64=VECTOR('',#284,2.25);
#65=VECTOR('',#289,4.5);
#66=VECTOR('',#302,1.5875);
#67=VECTOR('',#319,12.7);
#68=VECTOR('',#336,7.20076445270707);
#69=VECTOR('',#339,11.0507644527071);
#70=CIRCLE('',#232,2.5);
#71=CIRCLE('',#233,1.5875);
#72=CIRCLE('',#234,1.5875);
#73=CIRCLE('',#236,2.5);
#74=CIRCLE('',#238,4.5);
#75=CIRCLE('',#240,4.5);
#76=CIRCLE('',#242,2.5875);
#77=CIRCLE('',#243,1.);
#78=CIRCLE('',#244,1.5875);
#79=CIRCLE('',#245,1.5875);
#80=CIRCLE('',#248,4.07560950834179);
#81=CIRCLE('',#250,11.7);
#82=CIRCLE('',#251,1.);
#83=CIRCLE('',#252,12.7);
#84=CIRCLE('',#253,12.7);
#85=CIRCLE('',#255,12.7);
#86=CIRCLE('',#258,5.07252684207492);
#87=CIRCLE('',#259,5.07252684207492);
#88=CIRCLE('',#260,1.);
#89=CIRCLE('',#262,9.40152890541415);
#90=VERTEX_POINT('',#342);
#91=VERTEX_POINT('',#344);
#92=VERTEX_POINT('',#346);
#93=VERTEX_POINT('',#350);
#94=VERTEX_POINT('',#354);
#95=VERTEX_POINT('',#358);
#96=VERTEX_POINT('',#362);
#97=VERTEX_POINT('',#364);
#98=VERTEX_POINT('',#366);
#99=VERTEX_POINT('',#372);
#100=VERTEX_POINT('',#375);
#101=VERTEX_POINT('',#377);
#102=VERTEX_POINT('',#379);
#103=VERTEX_POINT('',#383);
#104=VERTEX_POINT('',#388);
#105=VERTEX_POINT('',#389);
#106=VERTEX_POINT('',#394);
#107=EDGE_CURVE('',#90,#90,#70,.T.);
#108=EDGE_CURVE('',#90,#91,#54,.T.);
#109=EDGE_CURVE('',#92,#91,#71,.T.);
#110=EDGE_CURVE('',#91,#92,#72,.T.);
#111=EDGE_CURVE('',#93,#93,#73,.T.);
#112=EDGE_CURVE('',#93,#90,#55,.T.);
#113=EDGE_CURVE('',#94,#94,#74,.T.);
#114=EDGE_CURVE('',#94,#93,#56,.T.);
#115=EDGE_CURVE('',#95,#95,#75,.T.);
#116=EDGE_CURVE('',#95,#94,#57,.T.);
#117=EDGE_CURVE('',#96,#96,#76,.T.);
#118=EDGE_CURVE('',#96,#97,#77,.T.);
#119=EDGE_CURVE('',#97,#98,#78,.T.);
#120=EDGE_CURVE('',#98,#97,#79,.T.);
#121=EDGE_CURVE('',#98,#92,#58,.T.);
#122=EDGE_CURVE('',#99,#99,#80,.T.);
#123=EDGE_CURVE('',#100,#100,#81,.T.);
#124=EDGE_CURVE('',#100,#101,#82,.T.);
#125=EDGE_CURVE('',#101,#102,#83,.T.);
#126=EDGE_CURVE('',#102,#101,#84,.T.);
#127=EDGE_CURVE('',#102,#103,#59,.T.);
#128=EDGE_CURVE('',#103,#103,#85,.T.);
#129=EDGE_CURVE('',#104,#105,#86,.T.);
#130=EDGE_CURVE('',#105,#104,#87,.T.);
#131=EDGE_CURVE('',#104,#99,#88,.T.);
#132=EDGE_CURVE('',#106,#106,#89,.T.);
#133=EDGE_CURVE('',#106,#105,#60,.T.);
#134=EDGE_CURVE('',#103,#106,#61,.T.);
#135=ORIENTED_EDGE('',*,*,#107,.T.);
#136=ORIENTED_EDGE('',*,*,#108,.T.);
#137=ORIENTED_EDGE('',*,*,#109,.F.);
#138=ORIENTED_EDGE('',*,*,#110,.F.);
#139=ORIENTED_EDGE('',*,*,#108,.F.);
#140=ORIENTED_EDGE('',*,*,#111,.F.);
#141=ORIENTED_EDGE('',*,*,#112,.T.);
#142=ORIENTED_EDGE('',*,*,#107,.F.);
#143=ORIENTED_EDGE('',*,*,#112,.F.);
#144=ORIENTED_EDGE('',*,*,#113,.T.);
#145=ORIENTED_EDGE('',*,*,#114,.T.);
#146=ORIENTED_EDGE('',*,*,#111,.T.);
#147=ORIENTED_EDGE('',*,*,#114,.F.);
#148=ORIENTED_EDGE('',*,*,#115,.F.);
#149=ORIENTED_EDGE('',*,*,#116,.T.);
#150=ORIENTED_EDGE('',*,*,#113,.F.);
#151=ORIENTED_EDGE('',*,*,#116,.F.);
#152=ORIENTED_EDGE('',*,*,#117,.T.);
#153=ORIENTED_EDGE('',*,*,#118,.T.);
#154=ORIENTED_EDGE('',*,*,#119,.T.);
#155=ORIENTED_EDGE('',*,*,#120,.T.);
#156=ORIENTED_EDGE('',*,*,#118,.F.);
#157=ORIENTED_EDGE('',*,*,#119,.F.);
#158=ORIENTED_EDGE('',*,*,#120,.F.);
#159=ORIENTED_EDGE('',*,*,#121,.T.);
#160=ORIENTED_EDGE('',*,*,#109,.T.);
#161=ORIENTED_EDGE('',*,*,#110,.T.);
#162=ORIENTED_EDGE('',*,*,#121,.F.);
#163=ORIENTED_EDGE('',*,*,#122,.F.);
#164=ORIENTED_EDGE('',*,*,#117,.F.);
#165=ORIENTED_EDGE('',*,*,#123,.T.);
#166=ORIENTED_EDGE('',*,*,#124,.T.);
#167=ORIENTED_EDGE('',*,*,#125,.T.);
#168=ORIENTED_EDGE('',*,*,#126,.T.);
#169=ORIENTED_EDGE('',*,*,#124,.F.);
#170=ORIENTED_EDGE('',*,*,#126,.F.);
#171=ORIENTED_EDGE('',*,*,#127,.T.);
#172=ORIENTED_EDGE('',*,*,#128,.T.);
#173=ORIENTED_EDGE('',*,*,#127,.F.);
#174=ORIENTED_EDGE('',*,*,#125,.F.);
#175=ORIENTED_EDGE('',*,*,#123,.F.);
#176=ORIENTED_EDGE('',*,*,#115,.T.);
#177=ORIENTED_EDGE('',*,*,#129,.T.);
#178=ORIENTED_EDGE('',*,*,#130,.T.);
#179=ORIENTED_EDGE('',*,*,#131,.T.);
#180=ORIENTED_EDGE('',*,*,#122,.T.);
#181=ORIENTED_EDGE('',*,*,#131,.F.);
#182=ORIENTED_EDGE('',*,*,#132,.F.);
#183=ORIENTED_EDGE('',*,*,#133,.T.);
#184=ORIENTED_EDGE('',*,*,#129,.F.);
#185=ORIENTED_EDGE('',*,*,#130,.F.);
#186=ORIENTED_EDGE('',*,*,#133,.F.);
#187=ORIENTED_EDGE('',*,*,#128,.F.);
#188=ORIENTED_EDGE('',*,*,#134,.T.);
#189=ORIENTED_EDGE('',*,*,#132,.T.);
#190=ORIENTED_EDGE('',*,*,#134,.F.);
#191=CONICAL_SURFACE('',#231,1.25,1.02974425867665);
#192=CONICAL_SURFACE('',#237,2.25,1.02974425867665);
#193=CONICAL_SURFACE('',#261,7.20076445270707,0.0785398163397451);
#194=CONICAL_SURFACE('',#263,11.0507644527071,0.680678408277789);
#195=ADVANCED_FACE('',(#26),#191,.F.);
#196=ADVANCED_FACE('',(#27),#22,.F.);
#197=ADVANCED_FACE('',(#28),#192,.F.);
#198=ADVANCED_FACE('',(#29),#23,.F.);
#199=ADVANCED_FACE('',(#30),#19,.T.);
#200=ADVANCED_FACE('',(#31),#24,.F.);
#201=ADVANCED_FACE('',(#32,#15),#17,.T.);
#202=ADVANCED_FACE('',(#33),#20,.T.);
#203=ADVANCED_FACE('',(#34),#25,.T.);
#204=ADVANCED_FACE('',(#35,#16),#18,.T.);
#205=ADVANCED_FACE('',(#36),#21,.T.);
#206=ADVANCED_FACE('',(#37),#193,.T.);
#207=ADVANCED_FACE('',(#38),#194,.T.);
#208=CLOSED_SHELL('',(#195,#196,#197,#198,#199,#200,#201,#202,#203,#204,
#205,#206,#207));
#209=DERIVED_UNIT_ELEMENT(#212,1.);
#210=DERIVED_UNIT_ELEMENT(#404,-3.);
#211=DIMENSIONAL_EXPONENTS(0.,1.,0.,0.,0.,0.,0.);
#212=(
CONVERSION_BASED_UNIT('gram',#214)
MASS_UNIT()
NAMED_UNIT(#211)
);
#213=(
MASS_UNIT()
NAMED_UNIT(*)
SI_UNIT(.KILO.,.GRAM.)
);
#214=MASS_MEASURE_WITH_UNIT(MASS_MEASURE(0.001),#213);
#215=DERIVED_UNIT((#209,#210));
#216=MEASURE_REPRESENTATION_ITEM('density measure',
POSITIVE_RATIO_MEASURE(1.),#215);
#217=PROPERTY_DEFINITION_REPRESENTATION(#222,#219);
#218=PROPERTY_DEFINITION_REPRESENTATION(#223,#220);
#219=REPRESENTATION('material name',(#221),#401);
#220=REPRESENTATION('density',(#216),#401);
#221=DESCRIPTIVE_REPRESENTATION_ITEM('\X2\C77CBC18\X0\','\X2\C77CBC18\X0\');
#222=PROPERTY_DEFINITION('material property','material name',#411);
#223=PROPERTY_DEFINITION('material property','density of part',#411);
#224=DATE_TIME_ROLE('creation_date');
#225=APPLIED_DATE_AND_TIME_ASSIGNMENT(#226,#224,(#411));
#226=DATE_AND_TIME(#227,#228);
#227=CALENDAR_DATE(2024,15,1);
#228=LOCAL_TIME(0,0,0.,#229);
#229=COORDINATED_UNIVERSAL_TIME_OFFSET(0,0,.BEHIND.);
#230=AXIS2_PLACEMENT_3D('',#340,#264,#265);
#231=AXIS2_PLACEMENT_3D('',#341,#266,#267);
#232=AXIS2_PLACEMENT_3D('',#343,#268,#269);
#233=AXIS2_PLACEMENT_3D('',#347,#271,#272);
#234=AXIS2_PLACEMENT_3D('',#348,#273,#274);
#235=AXIS2_PLACEMENT_3D('',#349,#275,#276);
#236=AXIS2_PLACEMENT_3D('',#351,#277,#278);
#237=AXIS2_PLACEMENT_3D('',#353,#280,#281);
#238=AXIS2_PLACEMENT_3D('',#355,#282,#283);
#239=AXIS2_PLACEMENT_3D('',#357,#285,#286);
#240=AXIS2_PLACEMENT_3D('',#359,#287,#288);
#241=AXIS2_PLACEMENT_3D('',#361,#290,#291);
#242=AXIS2_PLACEMENT_3D('',#363,#292,#293);
#243=AXIS2_PLACEMENT_3D('',#365,#294,#295);
#244=AXIS2_PLACEMENT_3D('',#367,#296,#297);
#245=AXIS2_PLACEMENT_3D('',#368,#298,#299);
#246=AXIS2_PLACEMENT_3D('',#369,#300,#301);
#247=AXIS2_PLACEMENT_3D('',#371,#303,#304);
#248=AXIS2_PLACEMENT_3D('',#373,#305,#306);
#249=AXIS2_PLACEMENT_3D('',#374,#307,#308);
#250=AXIS2_PLACEMENT_3D('',#376,#309,#310);
#251=AXIS2_PLACEMENT_3D('',#378,#311,#312);
#252=AXIS2_PLACEMENT_3D('',#380,#313,#314);
#253=AXIS2_PLACEMENT_3D('',#381,#315,#316);
#254=AXIS2_PLACEMENT_3D('',#382,#317,#318);
#255=AXIS2_PLACEMENT_3D('',#385,#320,#321);
#256=AXIS2_PLACEMENT_3D('',#386,#322,#323);
#257=AXIS2_PLACEMENT_3D('',#387,#324,#325);
#258=AXIS2_PLACEMENT_3D('',#390,#326,#327);
#259=AXIS2_PLACEMENT_3D('',#391,#328,#329);
#260=AXIS2_PLACEMENT_3D('',#392,#330,#331);
#261=AXIS2_PLACEMENT_3D('',#393,#332,#333);
#262=AXIS2_PLACEMENT_3D('',#395,#334,#335);
#263=AXIS2_PLACEMENT_3D('',#397,#337,#338);
#264=DIRECTION('axis',(0.,0.,1.));
#265=DIRECTION('refdir',(1.,0.,0.));
#266=DIRECTION('center_axis',(-1.,0.,0.));
#267=DIRECTION('ref_axis',(0.,0.,1.));
#268=DIRECTION('center_axis',(-1.,0.,0.));
#269=DIRECTION('ref_axis',(0.,0.,1.));
#270=DIRECTION('',(0.515038074910054,1.04972719113862E-16,0.857167300702112));
#271=DIRECTION('center_axis',(-1.,0.,0.));
#272=DIRECTION('ref_axis',(0.,0.,-1.));
#273=DIRECTION('center_axis',(-1.,0.,0.));
#274=DIRECTION('ref_axis',(0.,0.,-1.));
#275=DIRECTION('center_axis',(-1.,0.,0.));
#276=DIRECTION('ref_axis',(0.,0.,1.));
#277=DIRECTION('center_axis',(1.,0.,0.));
#278=DIRECTION('ref_axis',(0.,0.,1.));
#279=DIRECTION('',(1.,0.,0.));
#280=DIRECTION('center_axis',(-1.,0.,0.));
#281=DIRECTION('ref_axis',(0.,0.,1.));
#282=DIRECTION('center_axis',(-1.,0.,0.));
#283=DIRECTION('ref_axis',(0.,0.,1.));
#284=DIRECTION('',(0.515038074910054,1.04972719113862E-16,0.857167300702112));
#285=DIRECTION('center_axis',(-1.,0.,0.));
#286=DIRECTION('ref_axis',(0.,0.,1.));
#287=DIRECTION('center_axis',(1.,0.,0.));
#288=DIRECTION('ref_axis',(0.,0.,1.));
#289=DIRECTION('',(1.,0.,0.));
#290=DIRECTION('center_axis',(-1.,0.,0.));
#291=DIRECTION('ref_axis',(0.,0.,1.));
#292=DIRECTION('center_axis',(1.,0.,0.));
#293=DIRECTION('ref_axis',(0.,-1.22464679914735E-16,1.));
#294=DIRECTION('center_axis',(0.,-1.,1.22464679914735E-16));
#295=DIRECTION('ref_axis',(0.,-1.22464679914735E-16,-1.));
#296=DIRECTION('center_axis',(-1.,0.,0.));
#297=DIRECTION('ref_axis',(0.,-1.22464679914735E-16,1.));
#298=DIRECTION('center_axis',(-1.,0.,0.));
#299=DIRECTION('ref_axis',(0.,-1.22464679914735E-16,1.));
#300=DIRECTION('center_axis',(1.,0.,0.));
#301=DIRECTION('ref_axis',(0.,0.,-1.));
#302=DIRECTION('',(-1.,0.,0.));
#303=DIRECTION('center_axis',(1.,0.,0.));
#304=DIRECTION('ref_axis',(0.,0.,-1.));
#305=DIRECTION('center_axis',(-1.,0.,0.));
#306=DIRECTION('ref_axis',(0.,-1.,-1.83697019872103E-16));
#307=DIRECTION('center_axis',(-1.,0.,0.));
#308=DIRECTION('ref_axis',(0.,0.,1.));
#309=DIRECTION('center_axis',(1.,0.,0.));
#310=DIRECTION('ref_axis',(0.,-1.,-1.83697019872103E-16));
#311=DIRECTION('center_axis',(0.,-1.,1.22464679914735E-16));
#312=DIRECTION('ref_axis',(0.,-1.22464679914735E-16,-1.));
#313=DIRECTION('center_axis',(-1.,0.,0.));
#314=DIRECTION('ref_axis',(0.,-1.,-1.83697019872103E-16));
#315=DIRECTION('center_axis',(-1.,0.,0.));
#316=DIRECTION('ref_axis',(0.,-1.,-1.83697019872103E-16));
#317=DIRECTION('center_axis',(-1.,0.,0.));
#318=DIRECTION('ref_axis',(0.,1.,0.));
#319=DIRECTION('',(1.,0.,0.));
#320=DIRECTION('center_axis',(-1.,0.,0.));
#321=DIRECTION('ref_axis',(0.,0.,1.));
#322=DIRECTION('center_axis',(-1.,0.,0.));
#323=DIRECTION('ref_axis',(0.,0.,1.));
#324=DIRECTION('center_axis',(-1.,0.,0.));
#325=DIRECTION('ref_axis',(0.,0.,1.));
#326=DIRECTION('center_axis',(1.,0.,0.));
#327=DIRECTION('ref_axis',(0.,-1.,-3.06161699786838E-17));
#328=DIRECTION('center_axis',(1.,0.,0.));
#329=DIRECTION('ref_axis',(0.,-1.,-3.06161699786838E-17));
#330=DIRECTION('center_axis',(0.,-1.,1.22464679914735E-16));
#331=DIRECTION('ref_axis',(0.,-1.22464679914735E-16,-1.));
#332=DIRECTION('center_axis',(-1.,0.,0.));
#333=DIRECTION('ref_axis',(0.,1.,0.));
#334=DIRECTION('center_axis',(-1.,0.,0.));
#335=DIRECTION('ref_axis',(0.,0.,1.));
#336=DIRECTION('',(0.996917333733128,0.0784590957278453,-9.60846804471015E-18));
#337=DIRECTION('center_axis',(-1.,0.,0.));
#338=DIRECTION('ref_axis',(0.,1.,0.));
#339=DIRECTION('',(0.77714596145697,0.629320391049838,-7.70695202537345E-17));
#340=CARTESIAN_POINT('',(0.,0.,0.));
#341=CARTESIAN_POINT('Origin',(-8.73892422621555,0.,0.));
#342=CARTESIAN_POINT('',(-9.49,-3.06161699786838E-16,-2.5));
#343=CARTESIAN_POINT('Origin',(-9.49,0.,0.));
#344=CARTESIAN_POINT('',(-8.94171468513736,-1.94412679364643E-16,-1.5875));
#345=CARTESIAN_POINT('',(-8.73892422621555,-1.53080849893419E-16,-1.25));
#346=CARTESIAN_POINT('',(-8.94171468513736,1.94412679364642E-16,1.5875));
#347=CARTESIAN_POINT('Origin',(-8.94171468513736,0.,0.));
#348=CARTESIAN_POINT('Origin',(-8.94171468513736,0.,0.));
#349=CARTESIAN_POINT('Origin',(-84.745,0.,0.));
#350=CARTESIAN_POINT('',(-88.7982787619449,3.06161699786838E-16,-2.5));
#351=CARTESIAN_POINT('Origin',(-88.7982787619449,0.,0.));
#352=CARTESIAN_POINT('',(-84.745,-3.06161699786838E-16,-2.5));
#353=CARTESIAN_POINT('Origin',(-88.648063607188,0.,0.));
#354=CARTESIAN_POINT('',(-90.,-5.51091059616309E-16,-4.5));
#355=CARTESIAN_POINT('Origin',(-90.,0.,0.));
#356=CARTESIAN_POINT('',(-88.648063607188,-2.75545529808154E-16,-2.25));
#357=CARTESIAN_POINT('Origin',(-125.,0.,0.));
#358=CARTESIAN_POINT('',(-160.,-5.51091059616309E-16,-4.5));
#359=CARTESIAN_POINT('Origin',(-160.,0.,0.));
#360=CARTESIAN_POINT('',(-125.,-5.51091059616309E-16,-4.5));
#361=CARTESIAN_POINT('Origin',(-1.00000000000001,0.,0.));
#362=CARTESIAN_POINT('',(0.,6.33754718558755E-16,-2.5875));
#363=CARTESIAN_POINT('Origin',(0.,0.,0.));
#364=CARTESIAN_POINT('',(-1.00000000000001,0.,-1.5875));
#365=CARTESIAN_POINT('Origin',(-1.00000000000001,-3.16877359279378E-16,
-2.5875));
#366=CARTESIAN_POINT('',(-1.00000000000001,-1.94412679364642E-16,1.5875));
#367=CARTESIAN_POINT('Origin',(-1.00000000000001,0.,0.));
#368=CARTESIAN_POINT('Origin',(-1.00000000000001,0.,0.));
#369=CARTESIAN_POINT('Origin',(-163.982682012461,0.,0.));
#370=CARTESIAN_POINT('',(-163.982682012461,-1.94412679364642E-16,1.5875));
#371=CARTESIAN_POINT('Origin',(0.,5.,0.));
#372=CARTESIAN_POINT('',(0.,-4.99118213896529E-16,-4.07560950834179));
#373=CARTESIAN_POINT('Origin',(0.,0.,0.));
#374=CARTESIAN_POINT('Origin',(-159.,0.,0.));
#375=CARTESIAN_POINT('',(-160.,-1.4328367550024E-15,-11.7));
#376=CARTESIAN_POINT('Origin',(-160.,0.,0.));
#377=CARTESIAN_POINT('',(-159.,-1.55530143491714E-15,-12.7));
#378=CARTESIAN_POINT('Origin',(-159.,-1.4328367550024E-15,-11.7));
#379=CARTESIAN_POINT('',(-159.,-12.7,1.55530143491714E-15));
#380=CARTESIAN_POINT('Origin',(-159.,0.,0.));
#381=CARTESIAN_POINT('Origin',(-159.,0.,0.));
#382=CARTESIAN_POINT('Origin',(-110.,0.,0.));
#383=CARTESIAN_POINT('',(-60.,-12.7,1.55530143491714E-15));
#384=CARTESIAN_POINT('',(-110.,-12.7,1.55530143491714E-15));
#385=CARTESIAN_POINT('Origin',(-60.,0.,0.));
#386=CARTESIAN_POINT('Origin',(-160.,0.,0.));
#387=CARTESIAN_POINT('Origin',(-1.,0.,0.));
#388=CARTESIAN_POINT('',(-0.921540904272153,-6.21205376073608E-16,-5.07252684207492));
#389=CARTESIAN_POINT('',(-0.921540904272153,-5.07252684207492,6.21205376073608E-16));
#390=CARTESIAN_POINT('Origin',(-0.921540904272153,0.,7.7650672009201E-16));
#391=CARTESIAN_POINT('Origin',(-0.921540904272153,0.,7.7650672009201E-16));
#392=CARTESIAN_POINT('Origin',(-1.,-4.99118213896529E-16,-4.07560950834179));
#393=CARTESIAN_POINT('Origin',(-27.9633637121914,0.,0.));
#394=CARTESIAN_POINT('',(-55.9267274243829,-9.40152890541415,1.15135522811068E-15));
#395=CARTESIAN_POINT('Origin',(-55.9267274243829,0.,0.));
#396=CARTESIAN_POINT('',(-27.9633637121914,-7.20076445270707,8.81839313842176E-16));
#397=CARTESIAN_POINT('Origin',(-57.9633637121914,0.,0.));
#398=CARTESIAN_POINT('',(-57.9633637121914,-11.0507644527071,1.35332833151391E-15));
#399=UNCERTAINTY_MEASURE_WITH_UNIT(LENGTH_MEASURE(0.01),#403,
'DISTANCE_ACCURACY_VALUE',
'Maximum model space distance between geometric entities at asserted c
onnectivities');
#400=UNCERTAINTY_MEASURE_WITH_UNIT(LENGTH_MEASURE(0.01),#403,
'DISTANCE_ACCURACY_VALUE',
'Maximum model space distance between geometric entities at asserted c
onnectivities');
#401=(
GEOMETRIC_REPRESENTATION_CONTEXT(3)
GLOBAL_UNCERTAINTY_ASSIGNED_CONTEXT((#399))
GLOBAL_UNIT_ASSIGNED_CONTEXT((#403,#405,#406))
REPRESENTATION_CONTEXT('','3D')
);
#402=(
GEOMETRIC_REPRESENTATION_CONTEXT(3)
GLOBAL_UNCERTAINTY_ASSIGNED_CONTEXT((#400))
GLOBAL_UNIT_ASSIGNED_CONTEXT((#403,#405,#406))
REPRESENTATION_CONTEXT('','3D')
);
#403=(
LENGTH_UNIT()
NAMED_UNIT(*)
SI_UNIT(.MILLI.,.METRE.)
);
#404=(
LENGTH_UNIT()
NAMED_UNIT(*)
SI_UNIT(.CENTI.,.METRE.)
);
#405=(
NAMED_UNIT(*)
PLANE_ANGLE_UNIT()
SI_UNIT($,.RADIAN.)
);
#406=(
NAMED_UNIT(*)
SI_UNIT($,.STERADIAN.)
SOLID_ANGLE_UNIT()
);
#407=SHAPE_DEFINITION_REPRESENTATION(#408,#409);
#408=PRODUCT_DEFINITION_SHAPE('',$,#411);
#409=SHAPE_REPRESENTATION('',(#230),#401);
#410=PRODUCT_DEFINITION_CONTEXT('part definition',#415,'design');
#411=PRODUCT_DEFINITION('LO-ST25.4-SFH3.175-160',
'LO-ST25.4-SFH3.175-160',#412,#410);
#412=PRODUCT_DEFINITION_FORMATION('',$,#417);
#413=PRODUCT_RELATED_PRODUCT_CATEGORY('LO-ST25.4-SFH3.175-160',
'LO-ST25.4-SFH3.175-160',(#417));
#414=APPLICATION_PROTOCOL_DEFINITION('international standard',
'automotive_design',2009,#415);
#415=APPLICATION_CONTEXT(
'Core Data for Automotive Mechanical Design Process');
#416=PRODUCT_CONTEXT('part definition',#415,'mechanical');
#417=PRODUCT('LO-ST25.4-SFH3.175-160','LO-ST25.4-SFH3.175-160',$,(#416));
#418=PRESENTATION_STYLE_ASSIGNMENT((#419));
#419=SURFACE_STYLE_USAGE(.BOTH.,#422);
#420=SURFACE_STYLE_RENDERING_WITH_PROPERTIES($,#426,(#421));
#421=SURFACE_STYLE_TRANSPARENT(0.339999973773956);
#422=SURFACE_SIDE_STYLE('',(#423,#420));
#423=SURFACE_STYLE_FILL_AREA(#424);
#424=FILL_AREA_STYLE('',(#425));
#425=FILL_AREA_STYLE_COLOUR('',#426);
#426=COLOUR_RGB('',0.925490196078431,0.945098039215686,0.937254901960784);
ENDSEC;
END-ISO-10303-21;
