ISO-10303-21;
HEADER;
/* Generated by software containing ST-Developer
 * from STEP Tools, Inc. (www.steptools.com) 
 */

FILE_DESCRIPTION(
/* description */ (''),
/* implementation_level */ '2;1');

FILE_NAME(
/* name */ 
'Z:\\\X2\C5F0AD6CC18C\X0\\\DRAWING_3D\\1. \X2\C778BCA4D130\X0\\\4. LAY
-OUT\\STANDARD\\SHRINK FIT HOLDER\\ST\\ST20-SFH8-120\\ST20-SFH8-120.st
p',
/* time_stamp */ '2022-02-18T08:16:01+09:00',
/* author */ ('eos'),
/* organization */ (''),
/* preprocessor_version */ 'ST-DEVELOPER v18.1',
/* originating_system */ 'Autodesk Inventor 2022',
/* authorisation */ '');

FILE_SCHEMA (('AUTOMOTIVE_DESIGN { 1 0 10303 214 3 1 1 }'));
ENDSEC;

DATA;
#10=MECHANICAL_DESIGN_GEOMETRIC_PRESENTATION_REPRESENTATION('',(#13),#452);
#11=SHAPE_REPRESENTATION_RELATIONSHIP('SRR','None',#459,#12);
#12=ADVANCED_BREP_SHAPE_REPRESENTATION('',(#14),#451);
#13=STYLED_ITEM('',(#468),#14);
#14=MANIFOLD_SOLID_BREP('\X2\C194B9ACB4DC\X0\1',#235);
#15=TOROIDAL_SURFACE('',#266,5.5378047541709,0.5);
#16=TOROIDAL_SURFACE('',#275,5.,1.);
#17=TOROIDAL_SURFACE('',#281,9.,1.);
#18=CYLINDRICAL_SURFACE('',#264,5.);
#19=CYLINDRICAL_SURFACE('',#279,4.);
#20=CYLINDRICAL_SURFACE('',#285,10.);
#21=CYLINDRICAL_SURFACE('',#286,2.4585);
#22=CYLINDRICAL_SURFACE('',#291,4.5);
#23=FACE_BOUND('',#48,.T.);
#24=FACE_BOUND('',#52,.T.);
#25=FACE_BOUND('',#62,.T.);
#26=FACE_BOUND('',#64,.T.);
#27=PLANE('',#262);
#28=PLANE('',#271);
#29=PLANE('',#294);
#30=PLANE('',#295);
#31=FACE_OUTER_BOUND('',#46,.T.);
#32=FACE_OUTER_BOUND('',#47,.T.);
#33=FACE_OUTER_BOUND('',#49,.T.);
#34=FACE_OUTER_BOUND('',#50,.T.);
#35=FACE_OUTER_BOUND('',#51,.T.);
#36=FACE_OUTER_BOUND('',#53,.T.);
#37=FACE_OUTER_BOUND('',#54,.T.);
#38=FACE_OUTER_BOUND('',#55,.T.);
#39=FACE_OUTER_BOUND('',#56,.T.);
#40=FACE_OUTER_BOUND('',#57,.T.);
#41=FACE_OUTER_BOUND('',#58,.T.);
#42=FACE_OUTER_BOUND('',#59,.T.);
#43=FACE_OUTER_BOUND('',#60,.T.);
#44=FACE_OUTER_BOUND('',#61,.T.);
#45=FACE_OUTER_BOUND('',#63,.T.);
#46=EDGE_LOOP('',(#155,#156,#157,#158,#159));
#47=EDGE_LOOP('',(#160));
#48=EDGE_LOOP('',(#161));
#49=EDGE_LOOP('',(#162,#163,#164,#165,#166));
#50=EDGE_LOOP('',(#167,#168,#169,#170,#171));
#51=EDGE_LOOP('',(#172));
#52=EDGE_LOOP('',(#173));
#53=EDGE_LOOP('',(#174,#175,#176,#177,#178));
#54=EDGE_LOOP('',(#179,#180,#181,#182,#183));
#55=EDGE_LOOP('',(#184,#185,#186,#187,#188));
#56=EDGE_LOOP('',(#189,#190,#191,#192,#193));
#57=EDGE_LOOP('',(#194,#195,#196,#197,#198));
#58=EDGE_LOOP('',(#199,#200,#201,#202,#203));
#59=EDGE_LOOP('',(#204,#205,#206,#207,#208));
#60=EDGE_LOOP('',(#209,#210,#211,#212));
#61=EDGE_LOOP('',(#213));
#62=EDGE_LOOP('',(#214));
#63=EDGE_LOOP('',(#215));
#64=EDGE_LOOP('',(#216));
#65=LINE('',#387,#73);
#66=LINE('',#396,#74);
#67=LINE('',#411,#75);
#68=LINE('',#421,#76);
#69=LINE('',#430,#77);
#70=LINE('',#435,#78);
#71=LINE('',#440,#79);
#72=LINE('',#445,#80);
#73=VECTOR('',#302,5.28867513459481);
#74=VECTOR('',#313,5.);
#75=VECTOR('',#332,8.);
#76=VECTOR('',#345,4.);
#77=VECTOR('',#358,10.);
#78=VECTOR('',#363,2.4585);
#79=VECTOR('',#370,2.5);
#80=VECTOR('',#375,4.5);
#81=CIRCLE('',#259,5.57735026918963);
#82=CIRCLE('',#260,5.);
#83=CIRCLE('',#261,5.);
#84=CIRCLE('',#263,9.);
#85=CIRCLE('',#265,5.);
#86=CIRCLE('',#267,5.5378047541709);
#87=CIRCLE('',#268,0.5);
#88=CIRCLE('',#269,6.03626342103746);
#89=CIRCLE('',#270,6.03626342103746);
#90=CIRCLE('',#272,5.);
#91=CIRCLE('',#274,10.);
#92=CIRCLE('',#276,4.);
#93=CIRCLE('',#277,4.);
#94=CIRCLE('',#278,1.);
#95=CIRCLE('',#280,4.);
#96=CIRCLE('',#282,10.);
#97=CIRCLE('',#283,10.);
#98=CIRCLE('',#284,1.);
#99=CIRCLE('',#287,2.4585);
#100=CIRCLE('',#288,2.4585);
#101=CIRCLE('',#289,2.4585);
#102=CIRCLE('',#292,4.5);
#103=CIRCLE('',#293,4.5);
#104=VERTEX_POINT('',#384);
#105=VERTEX_POINT('',#386);
#106=VERTEX_POINT('',#388);
#107=VERTEX_POINT('',#392);
#108=VERTEX_POINT('',#395);
#109=VERTEX_POINT('',#399);
#110=VERTEX_POINT('',#401);
#111=VERTEX_POINT('',#403);
#112=VERTEX_POINT('',#407);
#113=VERTEX_POINT('',#410);
#114=VERTEX_POINT('',#414);
#115=VERTEX_POINT('',#415);
#116=VERTEX_POINT('',#420);
#117=VERTEX_POINT('',#424);
#118=VERTEX_POINT('',#425);
#119=VERTEX_POINT('',#432);
#120=VERTEX_POINT('',#434);
#121=VERTEX_POINT('',#436);
#122=VERTEX_POINT('',#442);
#123=VERTEX_POINT('',#444);
#124=EDGE_CURVE('',#104,#104,#81,.T.);
#125=EDGE_CURVE('',#104,#105,#65,.T.);
#126=EDGE_CURVE('',#105,#106,#82,.T.);
#127=EDGE_CURVE('',#106,#105,#83,.T.);
#128=EDGE_CURVE('',#107,#107,#84,.T.);
#129=EDGE_CURVE('',#106,#108,#66,.T.);
#130=EDGE_CURVE('',#108,#108,#85,.T.);
#131=EDGE_CURVE('',#109,#109,#86,.T.);
#132=EDGE_CURVE('',#109,#110,#87,.T.);
#133=EDGE_CURVE('',#110,#111,#88,.T.);
#134=EDGE_CURVE('',#111,#110,#89,.T.);
#135=EDGE_CURVE('',#112,#112,#90,.T.);
#136=EDGE_CURVE('',#111,#113,#67,.T.);
#137=EDGE_CURVE('',#113,#113,#91,.T.);
#138=EDGE_CURVE('',#114,#115,#92,.T.);
#139=EDGE_CURVE('',#115,#114,#93,.T.);
#140=EDGE_CURVE('',#114,#112,#94,.T.);
#141=EDGE_CURVE('',#115,#116,#68,.T.);
#142=EDGE_CURVE('',#116,#116,#95,.T.);
#143=EDGE_CURVE('',#117,#118,#96,.T.);
#144=EDGE_CURVE('',#118,#117,#97,.T.);
#145=EDGE_CURVE('',#117,#107,#98,.T.);
#146=EDGE_CURVE('',#113,#118,#69,.T.);
#147=EDGE_CURVE('',#119,#119,#99,.T.);
#148=EDGE_CURVE('',#119,#120,#70,.T.);
#149=EDGE_CURVE('',#121,#120,#100,.T.);
#150=EDGE_CURVE('',#120,#121,#101,.T.);
#151=EDGE_CURVE('',#108,#121,#71,.T.);
#152=EDGE_CURVE('',#122,#122,#102,.T.);
#153=EDGE_CURVE('',#122,#123,#72,.T.);
#154=EDGE_CURVE('',#123,#123,#103,.T.);
#155=ORIENTED_EDGE('',*,*,#124,.T.);
#156=ORIENTED_EDGE('',*,*,#125,.T.);
#157=ORIENTED_EDGE('',*,*,#126,.T.);
#158=ORIENTED_EDGE('',*,*,#127,.T.);
#159=ORIENTED_EDGE('',*,*,#125,.F.);
#160=ORIENTED_EDGE('',*,*,#128,.F.);
#161=ORIENTED_EDGE('',*,*,#124,.F.);
#162=ORIENTED_EDGE('',*,*,#126,.F.);
#163=ORIENTED_EDGE('',*,*,#127,.F.);
#164=ORIENTED_EDGE('',*,*,#129,.T.);
#165=ORIENTED_EDGE('',*,*,#130,.F.);
#166=ORIENTED_EDGE('',*,*,#129,.F.);
#167=ORIENTED_EDGE('',*,*,#131,.T.);
#168=ORIENTED_EDGE('',*,*,#132,.T.);
#169=ORIENTED_EDGE('',*,*,#133,.T.);
#170=ORIENTED_EDGE('',*,*,#134,.T.);
#171=ORIENTED_EDGE('',*,*,#132,.F.);
#172=ORIENTED_EDGE('',*,*,#131,.F.);
#173=ORIENTED_EDGE('',*,*,#135,.F.);
#174=ORIENTED_EDGE('',*,*,#134,.F.);
#175=ORIENTED_EDGE('',*,*,#136,.T.);
#176=ORIENTED_EDGE('',*,*,#137,.T.);
#177=ORIENTED_EDGE('',*,*,#136,.F.);
#178=ORIENTED_EDGE('',*,*,#133,.F.);
#179=ORIENTED_EDGE('',*,*,#138,.T.);
#180=ORIENTED_EDGE('',*,*,#139,.T.);
#181=ORIENTED_EDGE('',*,*,#140,.T.);
#182=ORIENTED_EDGE('',*,*,#135,.T.);
#183=ORIENTED_EDGE('',*,*,#140,.F.);
#184=ORIENTED_EDGE('',*,*,#138,.F.);
#185=ORIENTED_EDGE('',*,*,#139,.F.);
#186=ORIENTED_EDGE('',*,*,#141,.T.);
#187=ORIENTED_EDGE('',*,*,#142,.F.);
#188=ORIENTED_EDGE('',*,*,#141,.F.);
#189=ORIENTED_EDGE('',*,*,#143,.T.);
#190=ORIENTED_EDGE('',*,*,#144,.T.);
#191=ORIENTED_EDGE('',*,*,#145,.T.);
#192=ORIENTED_EDGE('',*,*,#128,.T.);
#193=ORIENTED_EDGE('',*,*,#145,.F.);
#194=ORIENTED_EDGE('',*,*,#137,.F.);
#195=ORIENTED_EDGE('',*,*,#146,.T.);
#196=ORIENTED_EDGE('',*,*,#143,.F.);
#197=ORIENTED_EDGE('',*,*,#144,.F.);
#198=ORIENTED_EDGE('',*,*,#146,.F.);
#199=ORIENTED_EDGE('',*,*,#147,.F.);
#200=ORIENTED_EDGE('',*,*,#148,.T.);
#201=ORIENTED_EDGE('',*,*,#149,.F.);
#202=ORIENTED_EDGE('',*,*,#150,.F.);
#203=ORIENTED_EDGE('',*,*,#148,.F.);
#204=ORIENTED_EDGE('',*,*,#130,.T.);
#205=ORIENTED_EDGE('',*,*,#151,.T.);
#206=ORIENTED_EDGE('',*,*,#149,.T.);
#207=ORIENTED_EDGE('',*,*,#150,.T.);
#208=ORIENTED_EDGE('',*,*,#151,.F.);
#209=ORIENTED_EDGE('',*,*,#152,.T.);
#210=ORIENTED_EDGE('',*,*,#153,.T.);
#211=ORIENTED_EDGE('',*,*,#154,.F.);
#212=ORIENTED_EDGE('',*,*,#153,.F.);
#213=ORIENTED_EDGE('',*,*,#154,.T.);
#214=ORIENTED_EDGE('',*,*,#147,.T.);
#215=ORIENTED_EDGE('',*,*,#152,.F.);
#216=ORIENTED_EDGE('',*,*,#142,.T.);
#217=CONICAL_SURFACE('',#258,5.28867513459481,0.523598775598298);
#218=CONICAL_SURFACE('',#273,8.,0.0785398163397487);
#219=CONICAL_SURFACE('',#290,2.5,1.02974425867665);
#220=ADVANCED_FACE('',(#31),#217,.F.);
#221=ADVANCED_FACE('',(#32,#23),#27,.T.);
#222=ADVANCED_FACE('',(#33),#18,.F.);
#223=ADVANCED_FACE('',(#34),#15,.T.);
#224=ADVANCED_FACE('',(#35,#24),#28,.T.);
#225=ADVANCED_FACE('',(#36),#218,.T.);
#226=ADVANCED_FACE('',(#37),#16,.T.);
#227=ADVANCED_FACE('',(#38),#19,.F.);
#228=ADVANCED_FACE('',(#39),#17,.T.);
#229=ADVANCED_FACE('',(#40),#20,.T.);
#230=ADVANCED_FACE('',(#41),#21,.F.);
#231=ADVANCED_FACE('',(#42),#219,.F.);
#232=ADVANCED_FACE('',(#43),#22,.F.);
#233=ADVANCED_FACE('',(#44,#25),#29,.T.);
#234=ADVANCED_FACE('',(#45,#26),#30,.T.);
#235=CLOSED_SHELL('',(#220,#221,#222,#223,#224,#225,#226,#227,#228,#229,
#230,#231,#232,#233,#234));
#236=DERIVED_UNIT_ELEMENT(#239,1.);
#237=DERIVED_UNIT_ELEMENT(#454,-3.);
#238=DIMENSIONAL_EXPONENTS(1.,0.,0.,0.,0.,0.,0.);
#239=(
CONVERSION_BASED_UNIT('gram',#241)
MASS_UNIT()
NAMED_UNIT(#238)
);
#240=(
MASS_UNIT()
NAMED_UNIT(*)
SI_UNIT(.KILO.,.GRAM.)
);
#241=MASS_MEASURE_WITH_UNIT(MASS_MEASURE(0.001),#240);
#242=DERIVED_UNIT((#236,#237));
#243=MEASURE_REPRESENTATION_ITEM('density measure',
POSITIVE_RATIO_MEASURE(1.),#242);
#244=PROPERTY_DEFINITION_REPRESENTATION(#249,#246);
#245=PROPERTY_DEFINITION_REPRESENTATION(#250,#247);
#246=REPRESENTATION('material name',(#248),#451);
#247=REPRESENTATION('density',(#243),#451);
#248=DESCRIPTIVE_REPRESENTATION_ITEM('\X2\C77CBC18\X0\','\X2\C77CBC18\X0\');
#249=PROPERTY_DEFINITION('material property','material name',#461);
#250=PROPERTY_DEFINITION('material property','density of part',#461);
#251=DATE_TIME_ROLE('creation_date');
#252=APPLIED_DATE_AND_TIME_ASSIGNMENT(#253,#251,(#461));
#253=DATE_AND_TIME(#254,#255);
#254=CALENDAR_DATE(2021,20,5);
#255=LOCAL_TIME(0,0,0.,#256);
#256=COORDINATED_UNIVERSAL_TIME_OFFSET(0,0,.BEHIND.);
#257=AXIS2_PLACEMENT_3D('placement',#382,#296,#297);
#258=AXIS2_PLACEMENT_3D('',#383,#298,#299);
#259=AXIS2_PLACEMENT_3D('',#385,#300,#301);
#260=AXIS2_PLACEMENT_3D('',#389,#303,#304);
#261=AXIS2_PLACEMENT_3D('',#390,#305,#306);
#262=AXIS2_PLACEMENT_3D('',#391,#307,#308);
#263=AXIS2_PLACEMENT_3D('',#393,#309,#310);
#264=AXIS2_PLACEMENT_3D('',#394,#311,#312);
#265=AXIS2_PLACEMENT_3D('',#397,#314,#315);
#266=AXIS2_PLACEMENT_3D('',#398,#316,#317);
#267=AXIS2_PLACEMENT_3D('',#400,#318,#319);
#268=AXIS2_PLACEMENT_3D('',#402,#320,#321);
#269=AXIS2_PLACEMENT_3D('',#404,#322,#323);
#270=AXIS2_PLACEMENT_3D('',#405,#324,#325);
#271=AXIS2_PLACEMENT_3D('',#406,#326,#327);
#272=AXIS2_PLACEMENT_3D('',#408,#328,#329);
#273=AXIS2_PLACEMENT_3D('',#409,#330,#331);
#274=AXIS2_PLACEMENT_3D('',#412,#333,#334);
#275=AXIS2_PLACEMENT_3D('',#413,#335,#336);
#276=AXIS2_PLACEMENT_3D('',#416,#337,#338);
#277=AXIS2_PLACEMENT_3D('',#417,#339,#340);
#278=AXIS2_PLACEMENT_3D('',#418,#341,#342);
#279=AXIS2_PLACEMENT_3D('',#419,#343,#344);
#280=AXIS2_PLACEMENT_3D('',#422,#346,#347);
#281=AXIS2_PLACEMENT_3D('',#423,#348,#349);
#282=AXIS2_PLACEMENT_3D('',#426,#350,#351);
#283=AXIS2_PLACEMENT_3D('',#427,#352,#353);
#284=AXIS2_PLACEMENT_3D('',#428,#354,#355);
#285=AXIS2_PLACEMENT_3D('',#429,#356,#357);
#286=AXIS2_PLACEMENT_3D('',#431,#359,#360);
#287=AXIS2_PLACEMENT_3D('',#433,#361,#362);
#288=AXIS2_PLACEMENT_3D('',#437,#364,#365);
#289=AXIS2_PLACEMENT_3D('',#438,#366,#367);
#290=AXIS2_PLACEMENT_3D('',#439,#368,#369);
#291=AXIS2_PLACEMENT_3D('',#441,#371,#372);
#292=AXIS2_PLACEMENT_3D('',#443,#373,#374);
#293=AXIS2_PLACEMENT_3D('',#446,#376,#377);
#294=AXIS2_PLACEMENT_3D('',#447,#378,#379);
#295=AXIS2_PLACEMENT_3D('',#448,#380,#381);
#296=DIRECTION('axis',(0.,0.,1.));
#297=DIRECTION('refdir',(1.,0.,0.));
#298=DIRECTION('center_axis',(-1.,0.,0.));
#299=DIRECTION('ref_axis',(0.,0.,-1.));
#300=DIRECTION('center_axis',(-1.,0.,0.));
#301=DIRECTION('ref_axis',(0.,0.,-1.));
#302=DIRECTION('',(0.866025403784439,-6.12323399573676E-17,-0.5));
#303=DIRECTION('center_axis',(1.,0.,0.));
#304=DIRECTION('ref_axis',(0.,0.,-1.));
#305=DIRECTION('center_axis',(1.,0.,0.));
#306=DIRECTION('ref_axis',(0.,0.,-1.));
#307=DIRECTION('center_axis',(-1.,0.,0.));
#308=DIRECTION('ref_axis',(0.,0.,1.));
#309=DIRECTION('center_axis',(1.,0.,0.));
#310=DIRECTION('ref_axis',(0.,-1.,1.83697019872103E-16));
#311=DIRECTION('center_axis',(-1.,0.,0.));
#312=DIRECTION('ref_axis',(0.,0.,1.));
#313=DIRECTION('',(1.,0.,0.));
#314=DIRECTION('center_axis',(-1.,0.,0.));
#315=DIRECTION('ref_axis',(0.,0.,1.));
#316=DIRECTION('center_axis',(1.,0.,0.));
#317=DIRECTION('ref_axis',(0.,0.,-1.));
#318=DIRECTION('center_axis',(-1.,0.,0.));
#319=DIRECTION('ref_axis',(0.,-1.,1.83697019872103E-16));
#320=DIRECTION('center_axis',(0.,-1.,-1.22464679914735E-16));
#321=DIRECTION('ref_axis',(0.,-1.22464679914735E-16,1.));
#322=DIRECTION('center_axis',(1.,0.,0.));
#323=DIRECTION('ref_axis',(0.,-1.,3.06161699786838E-17));
#324=DIRECTION('center_axis',(1.,0.,0.));
#325=DIRECTION('ref_axis',(0.,-1.,3.06161699786838E-17));
#326=DIRECTION('center_axis',(1.,0.,0.));
#327=DIRECTION('ref_axis',(0.,0.,-1.));
#328=DIRECTION('center_axis',(1.,0.,0.));
#329=DIRECTION('ref_axis',(0.,-1.,1.83697019872103E-16));
#330=DIRECTION('center_axis',(-1.,0.,0.));
#331=DIRECTION('ref_axis',(0.,1.,0.));
#332=DIRECTION('',(-0.996917333733128,-0.0784590957278488,-9.60846804471058E-18));
#333=DIRECTION('center_axis',(1.,0.,0.));
#334=DIRECTION('ref_axis',(0.,0.,-1.));
#335=DIRECTION('center_axis',(1.,0.,0.));
#336=DIRECTION('ref_axis',(0.,0.,-1.));
#337=DIRECTION('center_axis',(-1.,0.,0.));
#338=DIRECTION('ref_axis',(0.,-1.,1.83697019872103E-16));
#339=DIRECTION('center_axis',(-1.,0.,0.));
#340=DIRECTION('ref_axis',(0.,-1.,1.83697019872103E-16));
#341=DIRECTION('center_axis',(0.,-1.,-1.22464679914735E-16));
#342=DIRECTION('ref_axis',(0.,-1.22464679914735E-16,1.));
#343=DIRECTION('center_axis',(1.,0.,0.));
#344=DIRECTION('ref_axis',(0.,1.,0.));
#345=DIRECTION('',(-1.,0.,0.));
#346=DIRECTION('center_axis',(1.,0.,0.));
#347=DIRECTION('ref_axis',(0.,0.,-1.));
#348=DIRECTION('center_axis',(1.,0.,0.));
#349=DIRECTION('ref_axis',(0.,0.,-1.));
#350=DIRECTION('center_axis',(-1.,0.,0.));
#351=DIRECTION('ref_axis',(0.,-1.,1.83697019872103E-16));
#352=DIRECTION('center_axis',(-1.,0.,0.));
#353=DIRECTION('ref_axis',(0.,-1.,1.83697019872103E-16));
#354=DIRECTION('center_axis',(0.,-1.,-1.22464679914735E-16));
#355=DIRECTION('ref_axis',(0.,-1.22464679914735E-16,1.));
#356=DIRECTION('center_axis',(1.,0.,0.));
#357=DIRECTION('ref_axis',(0.,1.,0.));
#358=DIRECTION('',(-1.,0.,0.));
#359=DIRECTION('center_axis',(1.,0.,0.));
#360=DIRECTION('ref_axis',(0.,0.,-1.));
#361=DIRECTION('center_axis',(-1.,0.,0.));
#362=DIRECTION('ref_axis',(0.,0.,-1.));
#363=DIRECTION('',(-1.,0.,0.));
#364=DIRECTION('center_axis',(1.,0.,0.));
#365=DIRECTION('ref_axis',(0.,0.,-1.));
#366=DIRECTION('center_axis',(1.,0.,0.));
#367=DIRECTION('ref_axis',(0.,0.,-1.));
#368=DIRECTION('center_axis',(-1.,0.,0.));
#369=DIRECTION('ref_axis',(0.,0.,1.));
#370=DIRECTION('',(0.515038074910054,1.04972719113862E-16,0.857167300702112));
#371=DIRECTION('center_axis',(1.,0.,0.));
#372=DIRECTION('ref_axis',(0.,1.,0.));
#373=DIRECTION('center_axis',(1.,0.,0.));
#374=DIRECTION('ref_axis',(0.,0.,-1.));
#375=DIRECTION('',(-1.,0.,0.));
#376=DIRECTION('center_axis',(1.,0.,0.));
#377=DIRECTION('ref_axis',(0.,0.,-1.));
#378=DIRECTION('center_axis',(1.,0.,0.));
#379=DIRECTION('ref_axis',(0.,0.,-1.));
#380=DIRECTION('center_axis',(-1.,0.,0.));
#381=DIRECTION('ref_axis',(0.,0.,1.));
#382=CARTESIAN_POINT('',(0.,0.,0.));
#383=CARTESIAN_POINT('Origin',(0.5,0.,0.));
#384=CARTESIAN_POINT('',(-5.55111512312578E-16,6.8302841548867E-16,5.57735026918963));
#385=CARTESIAN_POINT('Origin',(-5.55111512312578E-16,0.,0.));
#386=CARTESIAN_POINT('',(1.,-6.12323399573677E-16,5.));
#387=CARTESIAN_POINT('',(0.5,6.47675907531174E-16,5.28867513459481));
#388=CARTESIAN_POINT('',(1.,-6.12323399573677E-16,-5.));
#389=CARTESIAN_POINT('Origin',(1.,0.,0.));
#390=CARTESIAN_POINT('Origin',(1.,0.,0.));
#391=CARTESIAN_POINT('Origin',(-5.46354721637485E-16,10.,0.));
#392=CARTESIAN_POINT('',(-5.55111512312578E-16,-1.10218211923262E-15,9.));
#393=CARTESIAN_POINT('Origin',(-5.55111512312578E-16,0.,0.));
#394=CARTESIAN_POINT('Origin',(35.,0.,0.));
#395=CARTESIAN_POINT('',(70.,-6.12323399573677E-16,-5.));
#396=CARTESIAN_POINT('',(35.,-6.12323399573677E-16,-5.));
#397=CARTESIAN_POINT('Origin',(70.,0.,0.));
#398=CARTESIAN_POINT('Origin',(119.5,0.,0.));
#399=CARTESIAN_POINT('',(120.,-6.78185486649839E-16,5.5378047541709));
#400=CARTESIAN_POINT('Origin',(120.,0.,0.));
#401=CARTESIAN_POINT('',(119.539229547864,-7.39229067738378E-16,6.03626342103746));
#402=CARTESIAN_POINT('Origin',(119.5,-6.78185486649839E-16,5.5378047541709));
#403=CARTESIAN_POINT('',(119.539229547864,-6.03626342103746,-7.39229067738378E-16));
#404=CARTESIAN_POINT('Origin',(119.539229547864,0.,-9.24036334672972E-16));
#405=CARTESIAN_POINT('Origin',(119.539229547864,0.,-9.24036334672972E-16));
#406=CARTESIAN_POINT('Origin',(120.,4.,0.));
#407=CARTESIAN_POINT('',(120.,-6.12323399573677E-16,5.));
#408=CARTESIAN_POINT('Origin',(120.,0.,0.));
#409=CARTESIAN_POINT('Origin',(94.5875905276519,0.,0.));
#410=CARTESIAN_POINT('',(69.1751810553037,-10.,-1.22464679914735E-15));
#411=CARTESIAN_POINT('',(94.5875905276519,-8.,-9.79717439317883E-16));
#412=CARTESIAN_POINT('Origin',(69.1751810553037,0.,0.));
#413=CARTESIAN_POINT('Origin',(119.,0.,0.));
#414=CARTESIAN_POINT('',(119.,-4.89858719658941E-16,4.));
#415=CARTESIAN_POINT('',(119.,-4.,-4.89858719658941E-16));
#416=CARTESIAN_POINT('Origin',(119.,0.,0.));
#417=CARTESIAN_POINT('Origin',(119.,0.,0.));
#418=CARTESIAN_POINT('Origin',(119.,-6.12323399573677E-16,5.));
#419=CARTESIAN_POINT('Origin',(107.,0.,0.));
#420=CARTESIAN_POINT('',(94.,-4.,-4.89858719658941E-16));
#421=CARTESIAN_POINT('',(107.,-4.,-4.89858719658941E-16));
#422=CARTESIAN_POINT('Origin',(94.,0.,0.));
#423=CARTESIAN_POINT('Origin',(1.,0.,0.));
#424=CARTESIAN_POINT('',(1.,-1.22464679914735E-15,10.));
#425=CARTESIAN_POINT('',(1.,-10.,-1.22464679914735E-15));
#426=CARTESIAN_POINT('Origin',(1.,0.,0.));
#427=CARTESIAN_POINT('Origin',(1.,0.,0.));
#428=CARTESIAN_POINT('Origin',(1.,-1.10218211923262E-15,9.));
#429=CARTESIAN_POINT('Origin',(34.5875905276518,0.,0.));
#430=CARTESIAN_POINT('',(34.5875905276518,-10.,-1.22464679914735E-15));
#431=CARTESIAN_POINT('Origin',(-39.2882800593795,0.,0.));
#432=CARTESIAN_POINT('',(84.,-3.01079415570377E-16,2.4585));
#433=CARTESIAN_POINT('Origin',(84.,0.,0.));
#434=CARTESIAN_POINT('',(71.5270872632585,-3.01079415570377E-16,2.4585));
#435=CARTESIAN_POINT('',(-39.2882800593795,-3.01079415570377E-16,2.4585));
#436=CARTESIAN_POINT('',(71.5270872632585,-3.01079415570378E-16,-2.45850000000001));
#437=CARTESIAN_POINT('Origin',(71.5270872632585,0.,0.));
#438=CARTESIAN_POINT('Origin',(71.5270872632585,0.,0.));
#439=CARTESIAN_POINT('Origin',(71.5021515475689,0.,0.));
#440=CARTESIAN_POINT('',(71.5021515475689,-3.06161699786838E-16,-2.5));
#441=CARTESIAN_POINT('Origin',(89.,0.,0.));
#442=CARTESIAN_POINT('',(94.,-4.5,-5.51091059616309E-16));
#443=CARTESIAN_POINT('Origin',(94.,0.,0.));
#444=CARTESIAN_POINT('',(84.,-4.5,-5.51091059616309E-16));
#445=CARTESIAN_POINT('',(89.,-4.5,-5.51091059616309E-16));
#446=CARTESIAN_POINT('Origin',(84.,0.,0.));
#447=CARTESIAN_POINT('Origin',(84.,0.,0.));
#448=CARTESIAN_POINT('Origin',(94.,4.5,0.));
#449=UNCERTAINTY_MEASURE_WITH_UNIT(LENGTH_MEASURE(0.01),#453,
'DISTANCE_ACCURACY_VALUE',
'Maximum model space distance between geometric entities at asserted c
onnectivities');
#450=UNCERTAINTY_MEASURE_WITH_UNIT(LENGTH_MEASURE(0.01),#453,
'DISTANCE_ACCURACY_VALUE',
'Maximum model space distance between geometric entities at asserted c
onnectivities');
#451=(
GEOMETRIC_REPRESENTATION_CONTEXT(3)
GLOBAL_UNCERTAINTY_ASSIGNED_CONTEXT((#449))
GLOBAL_UNIT_ASSIGNED_CONTEXT((#453,#455,#456))
REPRESENTATION_CONTEXT('','3D')
);
#452=(
GEOMETRIC_REPRESENTATION_CONTEXT(3)
GLOBAL_UNCERTAINTY_ASSIGNED_CONTEXT((#450))
GLOBAL_UNIT_ASSIGNED_CONTEXT((#453,#455,#456))
REPRESENTATION_CONTEXT('','3D')
);
#453=(
LENGTH_UNIT()
NAMED_UNIT(*)
SI_UNIT(.MILLI.,.METRE.)
);
#454=(
LENGTH_UNIT()
NAMED_UNIT(*)
SI_UNIT(.CENTI.,.METRE.)
);
#455=(
NAMED_UNIT(*)
PLANE_ANGLE_UNIT()
SI_UNIT($,.RADIAN.)
);
#456=(
NAMED_UNIT(*)
SI_UNIT($,.STERADIAN.)
SOLID_ANGLE_UNIT()
);
#457=SHAPE_DEFINITION_REPRESENTATION(#458,#459);
#458=PRODUCT_DEFINITION_SHAPE('',$,#461);
#459=SHAPE_REPRESENTATION('',(#257),#451);
#460=PRODUCT_DEFINITION_CONTEXT('part definition',#465,'design');
#461=PRODUCT_DEFINITION('LO-ST16-SFH6-120','LO-ST20-SFH8-120',#462,#460);
#462=PRODUCT_DEFINITION_FORMATION('',$,#467);
#463=PRODUCT_RELATED_PRODUCT_CATEGORY('LO-ST20-SFH8-120',
'LO-ST20-SFH8-120',(#467));
#464=APPLICATION_PROTOCOL_DEFINITION('international standard',
'automotive_design',2009,#465);
#465=APPLICATION_CONTEXT(
'Core Data for Automotive Mechanical Design Process');
#466=PRODUCT_CONTEXT('part definition',#465,'mechanical');
#467=PRODUCT('LO-ST16-SFH6-120','LO-ST20-SFH8-120',$,(#466));
#468=PRESENTATION_STYLE_ASSIGNMENT((#469));
#469=SURFACE_STYLE_USAGE(.BOTH.,#472);
#470=SURFACE_STYLE_RENDERING_WITH_PROPERTIES($,#476,(#471));
#471=SURFACE_STYLE_TRANSPARENT(0.339999973773956);
#472=SURFACE_SIDE_STYLE('',(#473,#470));
#473=SURFACE_STYLE_FILL_AREA(#474);
#474=FILL_AREA_STYLE('',(#475));
#475=FILL_AREA_STYLE_COLOUR('',#476);
#476=COLOUR_RGB('',0.925490196078431,0.945098039215686,0.937254901960784);
ENDSEC;
END-ISO-10303-21;
